ISO-10303-21;
HEADER;
/* Generated by software containing ST-Developer
 * from STEP Tools, Inc. (www.steptools.com) 
 */

FILE_DESCRIPTION(
/* description */ (''),
/* implementation_level */ '2;1');

FILE_NAME(
/* name */ 'H:\\Plan\\pi\X\E8ce\\WT83 boitier D.stp',
/* time_stamp */ '2017-10-05T11:03:46+02:00',
/* author */ ('Fir03'),
/* organization */ (''),
/* preprocessor_version */ 'ST-DEVELOPER v16.5',
/* originating_system */ 'Autodesk Inventor 2017',
/* authorisation */ '');

FILE_SCHEMA (('AUTOMOTIVE_DESIGN { 1 0 10303 214 3 1 1 }'));
ENDSEC;

DATA;
#10=MECHANICAL_DESIGN_GEOMETRIC_PRESENTATION_REPRESENTATION('',(#13),#349);
#11=SHAPE_REPRESENTATION_RELATIONSHIP('SRR','None',#358,#12);
#12=ADVANCED_BREP_SHAPE_REPRESENTATION('',(#14),#348);
#13=STYLED_ITEM('',(#367),#14);
#14=MANIFOLD_SOLID_BREP('Solide1',#193);
#15=PLANE('',#215);
#16=PLANE('',#219);
#17=PLANE('',#223);
#18=PLANE('',#226);
#19=PLANE('',#227);
#20=CYLINDRICAL_SURFACE('',#198,5.05);
#21=CYLINDRICAL_SURFACE('',#203,5.04999999999999);
#22=CYLINDRICAL_SURFACE('',#210,5.05);
#23=CYLINDRICAL_SURFACE('',#212,0.3);
#24=CYLINDRICAL_SURFACE('',#216,0.5);
#25=CYLINDRICAL_SURFACE('',#220,0.3);
#26=FACE_BOUND('',#59,.T.);
#27=FACE_BOUND('',#61,.T.);
#28=FACE_BOUND('',#63,.T.);
#29=FACE_BOUND('',#65,.T.);
#30=FACE_BOUND('',#67,.T.);
#31=FACE_BOUND('',#69,.T.);
#32=FACE_BOUND('',#71,.T.);
#33=FACE_BOUND('',#73,.T.);
#34=FACE_BOUND('',#76,.T.);
#35=FACE_BOUND('',#78,.T.);
#36=FACE_BOUND('',#80,.T.);
#37=FACE_BOUND('',#83,.T.);
#38=FACE_BOUND('',#85,.T.);
#39=FACE_BOUND('',#87,.T.);
#40=FACE_BOUND('',#89,.T.);
#41=FACE_OUTER_BOUND('',#58,.T.);
#42=FACE_OUTER_BOUND('',#60,.T.);
#43=FACE_OUTER_BOUND('',#62,.T.);
#44=FACE_OUTER_BOUND('',#64,.T.);
#45=FACE_OUTER_BOUND('',#66,.T.);
#46=FACE_OUTER_BOUND('',#68,.T.);
#47=FACE_OUTER_BOUND('',#70,.T.);
#48=FACE_OUTER_BOUND('',#72,.T.);
#49=FACE_OUTER_BOUND('',#74,.T.);
#50=FACE_OUTER_BOUND('',#75,.T.);
#51=FACE_OUTER_BOUND('',#77,.T.);
#52=FACE_OUTER_BOUND('',#79,.T.);
#53=FACE_OUTER_BOUND('',#81,.T.);
#54=FACE_OUTER_BOUND('',#82,.T.);
#55=FACE_OUTER_BOUND('',#84,.T.);
#56=FACE_OUTER_BOUND('',#86,.T.);
#57=FACE_OUTER_BOUND('',#88,.T.);
#58=EDGE_LOOP('',(#138));
#59=EDGE_LOOP('',(#139));
#60=EDGE_LOOP('',(#140));
#61=EDGE_LOOP('',(#141));
#62=EDGE_LOOP('',(#142));
#63=EDGE_LOOP('',(#143));
#64=EDGE_LOOP('',(#144));
#65=EDGE_LOOP('',(#145));
#66=EDGE_LOOP('',(#146));
#67=EDGE_LOOP('',(#147));
#68=EDGE_LOOP('',(#148));
#69=EDGE_LOOP('',(#149));
#70=EDGE_LOOP('',(#150));
#71=EDGE_LOOP('',(#151));
#72=EDGE_LOOP('',(#152));
#73=EDGE_LOOP('',(#153));
#74=EDGE_LOOP('',(#154));
#75=EDGE_LOOP('',(#155));
#76=EDGE_LOOP('',(#156));
#77=EDGE_LOOP('',(#157));
#78=EDGE_LOOP('',(#158));
#79=EDGE_LOOP('',(#159));
#80=EDGE_LOOP('',(#160));
#81=EDGE_LOOP('',(#161));
#82=EDGE_LOOP('',(#162));
#83=EDGE_LOOP('',(#163));
#84=EDGE_LOOP('',(#164));
#85=EDGE_LOOP('',(#165));
#86=EDGE_LOOP('',(#166));
#87=EDGE_LOOP('',(#167));
#88=EDGE_LOOP('',(#168));
#89=EDGE_LOOP('',(#169));
#90=CIRCLE('',#196,4.875);
#91=CIRCLE('',#197,5.05);
#92=CIRCLE('',#199,5.05);
#93=CIRCLE('',#201,5.04999999999999);
#94=CIRCLE('',#202,4.87499999999999);
#95=CIRCLE('',#204,5.05);
#96=CIRCLE('',#206,4.875);
#97=CIRCLE('',#208,4.875);
#98=CIRCLE('',#209,5.05);
#99=CIRCLE('',#211,5.05);
#100=CIRCLE('',#213,0.3);
#101=CIRCLE('',#214,0.3);
#102=CIRCLE('',#217,0.5);
#103=CIRCLE('',#218,0.5);
#104=CIRCLE('',#221,0.3);
#105=CIRCLE('',#222,0.3);
#106=VERTEX_POINT('',#298);
#107=VERTEX_POINT('',#300);
#108=VERTEX_POINT('',#303);
#109=VERTEX_POINT('',#306);
#110=VERTEX_POINT('',#308);
#111=VERTEX_POINT('',#311);
#112=VERTEX_POINT('',#314);
#113=VERTEX_POINT('',#317);
#114=VERTEX_POINT('',#319);
#115=VERTEX_POINT('',#322);
#116=VERTEX_POINT('',#325);
#117=VERTEX_POINT('',#327);
#118=VERTEX_POINT('',#331);
#119=VERTEX_POINT('',#333);
#120=VERTEX_POINT('',#337);
#121=VERTEX_POINT('',#339);
#122=EDGE_CURVE('',#106,#106,#90,.T.);
#123=EDGE_CURVE('',#107,#107,#91,.T.);
#124=EDGE_CURVE('',#108,#108,#92,.T.);
#125=EDGE_CURVE('',#109,#109,#93,.T.);
#126=EDGE_CURVE('',#110,#110,#94,.T.);
#127=EDGE_CURVE('',#111,#111,#95,.T.);
#128=EDGE_CURVE('',#112,#112,#96,.T.);
#129=EDGE_CURVE('',#113,#113,#97,.T.);
#130=EDGE_CURVE('',#114,#114,#98,.T.);
#131=EDGE_CURVE('',#115,#115,#99,.T.);
#132=EDGE_CURVE('',#116,#116,#100,.T.);
#133=EDGE_CURVE('',#117,#117,#101,.T.);
#134=EDGE_CURVE('',#118,#118,#102,.T.);
#135=EDGE_CURVE('',#119,#119,#103,.T.);
#136=EDGE_CURVE('',#120,#120,#104,.T.);
#137=EDGE_CURVE('',#121,#121,#105,.T.);
#138=ORIENTED_EDGE('',*,*,#122,.T.);
#139=ORIENTED_EDGE('',*,*,#123,.T.);
#140=ORIENTED_EDGE('',*,*,#124,.F.);
#141=ORIENTED_EDGE('',*,*,#123,.F.);
#142=ORIENTED_EDGE('',*,*,#125,.T.);
#143=ORIENTED_EDGE('',*,*,#126,.T.);
#144=ORIENTED_EDGE('',*,*,#127,.T.);
#145=ORIENTED_EDGE('',*,*,#125,.F.);
#146=ORIENTED_EDGE('',*,*,#124,.T.);
#147=ORIENTED_EDGE('',*,*,#128,.T.);
#148=ORIENTED_EDGE('',*,*,#129,.T.);
#149=ORIENTED_EDGE('',*,*,#130,.T.);
#150=ORIENTED_EDGE('',*,*,#131,.F.);
#151=ORIENTED_EDGE('',*,*,#130,.F.);
#152=ORIENTED_EDGE('',*,*,#132,.F.);
#153=ORIENTED_EDGE('',*,*,#133,.F.);
#154=ORIENTED_EDGE('',*,*,#132,.T.);
#155=ORIENTED_EDGE('',*,*,#134,.F.);
#156=ORIENTED_EDGE('',*,*,#135,.F.);
#157=ORIENTED_EDGE('',*,*,#134,.T.);
#158=ORIENTED_EDGE('',*,*,#133,.T.);
#159=ORIENTED_EDGE('',*,*,#136,.F.);
#160=ORIENTED_EDGE('',*,*,#137,.F.);
#161=ORIENTED_EDGE('',*,*,#136,.T.);
#162=ORIENTED_EDGE('',*,*,#122,.F.);
#163=ORIENTED_EDGE('',*,*,#126,.F.);
#164=ORIENTED_EDGE('',*,*,#129,.F.);
#165=ORIENTED_EDGE('',*,*,#128,.F.);
#166=ORIENTED_EDGE('',*,*,#131,.T.);
#167=ORIENTED_EDGE('',*,*,#137,.T.);
#168=ORIENTED_EDGE('',*,*,#127,.F.);
#169=ORIENTED_EDGE('',*,*,#135,.T.);
#170=TOROIDAL_SURFACE('',#195,4.85,0.2);
#171=TOROIDAL_SURFACE('',#200,4.84999999999999,0.2);
#172=TOROIDAL_SURFACE('',#205,4.85,0.2);
#173=TOROIDAL_SURFACE('',#207,4.85,0.2);
#174=TOROIDAL_SURFACE('',#224,5.,1.);
#175=TOROIDAL_SURFACE('',#225,5.,1.);
#176=ADVANCED_FACE('',(#41,#26),#170,.T.);
#177=ADVANCED_FACE('',(#42,#27),#20,.T.);
#178=ADVANCED_FACE('',(#43,#28),#171,.T.);
#179=ADVANCED_FACE('',(#44,#29),#21,.T.);
#180=ADVANCED_FACE('',(#45,#30),#172,.T.);
#181=ADVANCED_FACE('',(#46,#31),#173,.T.);
#182=ADVANCED_FACE('',(#47,#32),#22,.T.);
#183=ADVANCED_FACE('',(#48,#33),#23,.T.);
#184=ADVANCED_FACE('',(#49),#15,.T.);
#185=ADVANCED_FACE('',(#50,#34),#24,.T.);
#186=ADVANCED_FACE('',(#51,#35),#16,.T.);
#187=ADVANCED_FACE('',(#52,#36),#25,.T.);
#188=ADVANCED_FACE('',(#53),#17,.F.);
#189=ADVANCED_FACE('',(#54,#37),#174,.F.);
#190=ADVANCED_FACE('',(#55,#38),#175,.F.);
#191=ADVANCED_FACE('',(#56,#39),#18,.T.);
#192=ADVANCED_FACE('',(#57,#40),#19,.T.);
#193=CLOSED_SHELL('',(#176,#177,#178,#179,#180,#181,#182,#183,#184,#185,
#186,#187,#188,#189,#190,#191,#192));
#194=AXIS2_PLACEMENT_3D('placement',#296,#228,#229);
#195=AXIS2_PLACEMENT_3D('',#297,#230,#231);
#196=AXIS2_PLACEMENT_3D('',#299,#232,#233);
#197=AXIS2_PLACEMENT_3D('',#301,#234,#235);
#198=AXIS2_PLACEMENT_3D('',#302,#236,#237);
#199=AXIS2_PLACEMENT_3D('',#304,#238,#239);
#200=AXIS2_PLACEMENT_3D('',#305,#240,#241);
#201=AXIS2_PLACEMENT_3D('',#307,#242,#243);
#202=AXIS2_PLACEMENT_3D('',#309,#244,#245);
#203=AXIS2_PLACEMENT_3D('',#310,#246,#247);
#204=AXIS2_PLACEMENT_3D('',#312,#248,#249);
#205=AXIS2_PLACEMENT_3D('',#313,#250,#251);
#206=AXIS2_PLACEMENT_3D('',#315,#252,#253);
#207=AXIS2_PLACEMENT_3D('',#316,#254,#255);
#208=AXIS2_PLACEMENT_3D('',#318,#256,#257);
#209=AXIS2_PLACEMENT_3D('',#320,#258,#259);
#210=AXIS2_PLACEMENT_3D('',#321,#260,#261);
#211=AXIS2_PLACEMENT_3D('',#323,#262,#263);
#212=AXIS2_PLACEMENT_3D('',#324,#264,#265);
#213=AXIS2_PLACEMENT_3D('',#326,#266,#267);
#214=AXIS2_PLACEMENT_3D('',#328,#268,#269);
#215=AXIS2_PLACEMENT_3D('',#329,#270,#271);
#216=AXIS2_PLACEMENT_3D('',#330,#272,#273);
#217=AXIS2_PLACEMENT_3D('',#332,#274,#275);
#218=AXIS2_PLACEMENT_3D('',#334,#276,#277);
#219=AXIS2_PLACEMENT_3D('',#335,#278,#279);
#220=AXIS2_PLACEMENT_3D('',#336,#280,#281);
#221=AXIS2_PLACEMENT_3D('',#338,#282,#283);
#222=AXIS2_PLACEMENT_3D('',#340,#284,#285);
#223=AXIS2_PLACEMENT_3D('',#341,#286,#287);
#224=AXIS2_PLACEMENT_3D('',#342,#288,#289);
#225=AXIS2_PLACEMENT_3D('',#343,#290,#291);
#226=AXIS2_PLACEMENT_3D('',#344,#292,#293);
#227=AXIS2_PLACEMENT_3D('',#345,#294,#295);
#228=DIRECTION('axis',(0.,0.,1.));
#229=DIRECTION('refdir',(1.,0.,0.));
#230=DIRECTION('center_axis',(-1.,-1.83697019872103E-16,0.));
#231=DIRECTION('ref_axis',(-1.75876914792104E-16,1.,-5.93397199301848E-15));
#232=DIRECTION('center_axis',(1.,1.83697019872103E-16,0.));
#233=DIRECTION('ref_axis',(-1.8503717077086E-16,1.,-5.93397199301848E-15));
#234=DIRECTION('center_axis',(-1.,-1.83697019872103E-16,0.));
#235=DIRECTION('ref_axis',(-1.83697019872103E-16,1.,-5.93397199301848E-15));
#236=DIRECTION('center_axis',(1.,1.83697019872103E-16,0.));
#237=DIRECTION('ref_axis',(0.,1.,0.));
#238=DIRECTION('center_axis',(1.,1.83697019872103E-16,0.));
#239=DIRECTION('ref_axis',(-1.83697019872103E-16,1.,-5.93397199301848E-15));
#240=DIRECTION('center_axis',(1.,1.83697019872103E-16,0.));
#241=DIRECTION('ref_axis',(0.,0.,-1.));
#242=DIRECTION('center_axis',(1.,1.83697019872103E-16,0.));
#243=DIRECTION('ref_axis',(1.85495183569798E-16,-1.,1.83697019872103E-16));
#244=DIRECTION('center_axis',(-1.,-1.83697019872103E-16,0.));
#245=DIRECTION('ref_axis',(2.27738056333366E-16,-1.,1.83697019872103E-16));
#246=DIRECTION('center_axis',(1.,1.83697019872103E-16,0.));
#247=DIRECTION('ref_axis',(0.,1.,0.));
#248=DIRECTION('center_axis',(1.,1.83697019872103E-16,0.));
#249=DIRECTION('ref_axis',(0.,0.,-1.));
#250=DIRECTION('center_axis',(1.,1.83697019872103E-16,0.));
#251=DIRECTION('ref_axis',(0.,1.,-5.93397199301848E-15));
#252=DIRECTION('center_axis',(-1.,-1.83697019872103E-16,0.));
#253=DIRECTION('ref_axis',(-1.8503717077086E-16,1.,-5.93397199301848E-15));
#254=DIRECTION('center_axis',(-1.,-1.83697019872103E-16,0.));
#255=DIRECTION('ref_axis',(0.,1.,-5.93397199301848E-15));
#256=DIRECTION('center_axis',(1.,1.83697019872103E-16,0.));
#257=DIRECTION('ref_axis',(-1.8503717077086E-16,1.,-5.93397199301848E-15));
#258=DIRECTION('center_axis',(-1.,-1.83697019872103E-16,0.));
#259=DIRECTION('ref_axis',(-1.83697019872103E-16,1.,-5.93397199301848E-15));
#260=DIRECTION('center_axis',(1.,1.83697019872103E-16,0.));
#261=DIRECTION('ref_axis',(0.,1.,0.));
#262=DIRECTION('center_axis',(1.,1.83697019872103E-16,0.));
#263=DIRECTION('ref_axis',(0.,0.,-1.));
#264=DIRECTION('center_axis',(-1.,-1.83697019872103E-16,0.));
#265=DIRECTION('ref_axis',(0.,0.,-1.));
#266=DIRECTION('center_axis',(-1.,-1.83697019872103E-16,0.));
#267=DIRECTION('ref_axis',(0.,0.,-1.));
#268=DIRECTION('center_axis',(1.,1.83697019872103E-16,0.));
#269=DIRECTION('ref_axis',(0.,0.,-1.));
#270=DIRECTION('center_axis',(-1.,-1.83697019872103E-16,0.));
#271=DIRECTION('ref_axis',(0.,0.,1.));
#272=DIRECTION('center_axis',(-1.,-1.83697019872103E-16,0.));
#273=DIRECTION('ref_axis',(0.,0.,-1.));
#274=DIRECTION('center_axis',(-1.,-1.83697019872103E-16,0.));
#275=DIRECTION('ref_axis',(0.,0.,-1.));
#276=DIRECTION('center_axis',(1.,1.83697019872103E-16,0.));
#277=DIRECTION('ref_axis',(0.,0.,-1.));
#278=DIRECTION('center_axis',(-1.,-1.83697019872103E-16,0.));
#279=DIRECTION('ref_axis',(0.,0.,1.));
#280=DIRECTION('center_axis',(1.,1.83697019872103E-16,0.));
#281=DIRECTION('ref_axis',(0.,0.,1.));
#282=DIRECTION('center_axis',(1.,1.83697019872103E-16,0.));
#283=DIRECTION('ref_axis',(0.,0.,1.));
#284=DIRECTION('center_axis',(-1.,-1.83697019872103E-16,0.));
#285=DIRECTION('ref_axis',(0.,0.,1.));
#286=DIRECTION('center_axis',(-1.,-1.83697019872103E-16,0.));
#287=DIRECTION('ref_axis',(0.,0.,1.));
#288=DIRECTION('center_axis',(1.,1.83697019872103E-16,0.));
#289=DIRECTION('ref_axis',(0.,0.,-1.));
#290=DIRECTION('center_axis',(1.,1.83697019872103E-16,0.));
#291=DIRECTION('ref_axis',(0.,0.,-1.));
#292=DIRECTION('center_axis',(1.,1.83697019872103E-16,0.));
#293=DIRECTION('ref_axis',(0.,0.,-1.));
#294=DIRECTION('center_axis',(-1.,-1.83697019872103E-16,0.));
#295=DIRECTION('ref_axis',(0.,0.,1.));
#296=CARTESIAN_POINT('',(0.,0.,0.));
#297=CARTESIAN_POINT('Origin',(-3.97348364730836,-7.2991710452108E-16,0.));
#298=CARTESIAN_POINT('',(-4.1719149956382,-4.875,2.83310981513807E-14));
#299=CARTESIAN_POINT('Origin',(-4.17191499563821,-7.66368351858476E-16,
0.));
#300=CARTESIAN_POINT('',(-3.97348364730836,-5.05,3.05850051983127E-14));
#301=CARTESIAN_POINT('Origin',(-3.97348364730836,-7.2991710452108E-16,0.));
#302=CARTESIAN_POINT('Origin',(6.18592826271257,1.13633658700291E-15,0.));
#303=CARTESIAN_POINT('',(16.3453401727335,-5.04999999999999,2.93481119311739E-14));
#304=CARTESIAN_POINT('Origin',(16.3453401727335,3.00259027852691E-15,0.));
#305=CARTESIAN_POINT('Origin',(-6.35465982726649,-1.16733207256983E-15,
0.));
#306=CARTESIAN_POINT('',(-6.35465982726649,5.04999999999999,-3.09223316784706E-16));
#307=CARTESIAN_POINT('Origin',(-6.35465982726649,-1.16733207256983E-15,
0.));
#308=CARTESIAN_POINT('',(-6.15622847893665,4.87499999999999,-1.49253828646083E-15));
#309=CARTESIAN_POINT('Origin',(-6.15622847893665,-1.13088082523243E-15,
0.));
#310=CARTESIAN_POINT('Origin',(-6.31344634617338,-1.15976127891447E-15,
0.));
#311=CARTESIAN_POINT('',(-9.66407173728743,5.05,0.));
#312=CARTESIAN_POINT('Origin',(-9.66407173728743,-1.77526117796992E-15,
0.));
#313=CARTESIAN_POINT('Origin',(16.3453401727335,3.00259027852691E-15,0.));
#314=CARTESIAN_POINT('',(16.5437715210633,-4.87499999999999,2.95251287805494E-14));
#315=CARTESIAN_POINT('Origin',(16.5437715210633,3.03904152586431E-15,0.));
#316=CARTESIAN_POINT('Origin',(18.7265163526916,3.44000524657566E-15,0.));
#317=CARTESIAN_POINT('',(18.5280850043618,-4.87499999999999,2.83310981513807E-14));
#318=CARTESIAN_POINT('Origin',(18.5280850043618,3.40355399923826E-15,0.));
#319=CARTESIAN_POINT('',(18.7265163526916,-5.04999999999999,3.05850051983127E-14));
#320=CARTESIAN_POINT('Origin',(18.7265163526916,3.44000524657566E-15,0.));
#321=CARTESIAN_POINT('Origin',(20.4359282627126,3.75401912018038E-15,0.));
#322=CARTESIAN_POINT('',(22.3359282627126,5.05,0.));
#323=CARTESIAN_POINT('Origin',(22.3359282627126,4.10304345793738E-15,0.));
#324=CARTESIAN_POINT('Origin',(-12.1640717372874,-2.22203128544315E-15,
0.));
#325=CARTESIAN_POINT('',(-37.1640717372874,-6.7777173782713E-15,0.3));
#326=CARTESIAN_POINT('Origin',(-37.1640717372874,-6.81445678224572E-15,
0.));
#327=CARTESIAN_POINT('',(-12.1640717372874,-2.18529188146873E-15,0.3));
#328=CARTESIAN_POINT('Origin',(-12.1640717372874,-2.22203128544315E-15,
0.));
#329=CARTESIAN_POINT('Origin',(-37.1640717372874,-6.82096610110853E-15,
-1.51083078032629E-17));
#330=CARTESIAN_POINT('Origin',(-9.66407173728743,-1.77526117796992E-15,
0.));
#331=CARTESIAN_POINT('',(-12.1640717372874,-2.17327138769281E-15,0.5));
#332=CARTESIAN_POINT('Origin',(-12.1640717372874,-2.23450372765017E-15,
0.));
#333=CARTESIAN_POINT('',(-9.66407173728743,-1.71402883801255E-15,0.5));
#334=CARTESIAN_POINT('Origin',(-9.66407173728743,-1.77526117796992E-15,
0.));
#335=CARTESIAN_POINT('Origin',(-12.1640717372874,-2.25131841070524E-15,
-3.40147529293941E-17));
#336=CARTESIAN_POINT('Origin',(22.3359282627126,4.1155159001444E-15,0.));
#337=CARTESIAN_POINT('',(47.3359282627126,8.7446808009214E-15,-0.3));
#338=CARTESIAN_POINT('Origin',(47.3359282627126,8.70794139694698E-15,0.));
#339=CARTESIAN_POINT('',(22.3359282627126,4.15225530411882E-15,-0.3));
#340=CARTESIAN_POINT('Origin',(22.3359282627126,4.1155159001444E-15,0.));
#341=CARTESIAN_POINT('Origin',(47.3359282627126,8.72068671113479E-15,2.71549986086574E-17));
#342=CARTESIAN_POINT('Origin',(-5.16407173728743,-9.48624588545453E-16,
0.));
#343=CARTESIAN_POINT('Origin',(17.5359282627126,3.22129776255128E-15,0.));
#344=CARTESIAN_POINT('Origin',(22.3359282627126,4.44089209850063E-15,0.));
#345=CARTESIAN_POINT('Origin',(-9.66407173728743,5.05,0.));
#346=UNCERTAINTY_MEASURE_WITH_UNIT(LENGTH_MEASURE(0.01),#350,
'DISTANCE_ACCURACY_VALUE',
'Maximum model space distance between geometric entities at asserted c
onnectivities');
#347=UNCERTAINTY_MEASURE_WITH_UNIT(LENGTH_MEASURE(1.E-6),#350,
'DISTANCE_ACCURACY_VALUE',
'Maximum model space distance between geometric entities at asserted c
onnectivities');
#348=(
GEOMETRIC_REPRESENTATION_CONTEXT(3)
GLOBAL_UNCERTAINTY_ASSIGNED_CONTEXT((#346))
GLOBAL_UNIT_ASSIGNED_CONTEXT((#350,#353,#351))
REPRESENTATION_CONTEXT('','3D')
);
#349=(
GEOMETRIC_REPRESENTATION_CONTEXT(3)
GLOBAL_UNCERTAINTY_ASSIGNED_CONTEXT((#347))
GLOBAL_UNIT_ASSIGNED_CONTEXT((#350,#353,#351))
REPRESENTATION_CONTEXT('','3D')
);
#350=(
LENGTH_UNIT()
NAMED_UNIT(*)
SI_UNIT(.MILLI.,.METRE.)
);
#351=(
NAMED_UNIT(*)
SI_UNIT($,.STERADIAN.)
SOLID_ANGLE_UNIT()
);
#352=DIMENSIONAL_EXPONENTS(0.,0.,0.,0.,0.,0.,0.);
#353=(
CONVERSION_BASED_UNIT('degree',#355)
NAMED_UNIT(#352)
PLANE_ANGLE_UNIT()
);
#354=(
NAMED_UNIT(*)
PLANE_ANGLE_UNIT()
SI_UNIT($,.RADIAN.)
);
#355=PLANE_ANGLE_MEASURE_WITH_UNIT(PLANE_ANGLE_MEASURE(0.01745329252),#354);
#356=SHAPE_DEFINITION_REPRESENTATION(#357,#358);
#357=PRODUCT_DEFINITION_SHAPE('',$,#360);
#358=SHAPE_REPRESENTATION('',(#194),#348);
#359=PRODUCT_DEFINITION_CONTEXT('part definition',#364,'design');
#360=PRODUCT_DEFINITION('WT83 boitier D','WT83 boitier D',#361,#359);
#361=PRODUCT_DEFINITION_FORMATION('',$,#366);
#362=PRODUCT_RELATED_PRODUCT_CATEGORY('WT83 boitier D','WT83 boitier D',
(#366));
#363=APPLICATION_PROTOCOL_DEFINITION('international standard',
'automotive_design',2009,#364);
#364=APPLICATION_CONTEXT(
'Core Data for Automotive Mechanical Design Process');
#365=PRODUCT_CONTEXT('part definition',#364,'mechanical');
#366=PRODUCT('WT83 boitier D','WT83 boitier D',$,(#365));
#367=PRESENTATION_STYLE_ASSIGNMENT((#368));
#368=SURFACE_STYLE_USAGE(.BOTH.,#369);
#369=SURFACE_SIDE_STYLE('',(#370));
#370=SURFACE_STYLE_FILL_AREA(#371);
#371=FILL_AREA_STYLE('',(#372));
#372=FILL_AREA_STYLE_COLOUR('',#373);
#373=COLOUR_RGB('',0.501960784313725,0.501960784313725,0.501960784313725);
ENDSEC;
END-ISO-10303-21;
